Pokemon theme song, Powerful Red Hat version - solo tabs

(/) Slide Up  (\) Slide Down  (h) Hammer On  (p) Pull Off  (b) Bend (r) Release (v) Vibrato

E|---------------------------------------------------------------------
B|---------------------------------------------------------------------
G|-----------8--9--8--6--8--6/13--9--11------9--11------------------6--
D|--9--7--9------------------------------11---------11-----------------
A|------------------------------------------------------9--9--9--7-----
E|---------------------------------------------------------------------



E|----------------------------------------
B|-----7--9--10--10--10--12--10--9--------
G|--9-------------------------------9-----
D|-------------------------------------9--
A|----------------------------------------
E|----------------------------------------



E|-------------------------------------------------------9--12--11--11/16--16--16--
B|---------------9--12--11--12--11--9---------9--12--11----------------------------
G|--9--9--9--11------------------------9--11---------------------------------------
D|---------------------------------------------------------------------------------
A|---------------------------------------------------------------------------------
E|---------------------------------------------------------------------------------
http://www.guitartabcreator.com
Guitar Tab Creator is intended to store guitar tab created through the tool. It currently does not support in-line text editing. Any text you place in here will be lost. If you need to comment on your tab, please use the "Tab Notes" section located below.