Fighting Dreamers (Go!!!) - Flow - Powerful Red Hat - Cover - Solo

(/) Slide Up  (\) Slide Down  (h) Hammer On  (p) Pull Off  (b) Bend (r) Release (v) Vibrato


E|--------------------------------------------------
B|--1--0-----3--0-----1--0--1--0-----3--0-----1--0--
G|--------0--------0--------------0--------0--------
D|--------------------------------------------------
A|--------------------------------------------------
E|--------------------------------------------------



E|--------------------------------------------------
B|--1--0-----3--0-----1--0--1--0-----3--0-----1--0--
G|--------0--------0--------------0--------0--------
D|--------------------------------------------------
A|--------------------------------------------------
E|--------------------------------------------------



E|-----------------------
B|--1--0-----------------
G|--------2--0-----0--2--
D|--------------4--------
A|-----------------------
E|-----------------------



E|-----------3--------------------3--------------------3-----------------
B|--5--3-----------5--3--5--3-----------5--3--5--3-----------5--3-----3--
G|--------5-----5--------------5-----5--------------5-----5--------5-----
D|-----------------------------------------------------------------------
A|-----------------------------------------------------------------------
E|-----------------------------------------------------------------------



E|--------------------------------------------------
B|--4--3-----6--3-----4--3--4--3-----6--3-----4--3--
G|--------3--------3--------------3--------3--------
D|--------------------------------------------------
A|--------------------------------------------------
E|--------------------------------------------------



E|--------------------------------------
B|--6--5-----8--5-----6--5--6--5-----8--
G|--------5--------5--------------5-----
D|--------------------------------------
A|--------------------------------------
E|--------------------------------------
http://www.guitartabcreator.com
Guitar Tab Creator is intended to store guitar tab created through the tool. It currently does not support in-line text editing. Any text you place in here will be lost. If you need to comment on your tab, please use the "Tab Notes" section located below.