Angel's Cruel Thesis - Powerful Red Hat Cover - main rif + bridge solo

(/) Slide Up  (\) Slide Down  (h) Hammer On  (p) Pull Off  (b) Bend (r) Release (v) Vibrato


E|-----------------------------------------------------------------------
B|-----------------------7--5--4-----4--4--7--9--------7--7--4--7--7--9--
G|-----5--7--5--7--7--7-----------7--------------7--5--------------------
D|--7--------------------------------------------------------------------
A|-----------------------------------------------------------------------
E|-----------------------------------------------------------------------



E|--15--17--15--14--15--14------14------------------------------------------
B|--------------------------17------17--15--13--15--13--12--10--8--7--------
G|--------------------------------------------------------------------9-----
D|-----------------------------------------------------------------------9--
A|--------------------------------------------------------------------------
E|--------------------------------------------------------------------------



E|-------------------------------------------------------10------10--15--14--15--14--
B|----------------------8------8--10--8--10--12--10--12------12----------------------
G|--9--7--9--11--9--11-----11--------------------------------------------------------
D|-----------------------------------------------------------------------------------
A|-----------------------------------------------------------------------------------
E|-----------------------------------------------------------------------------------
http://www.guitartabcreator.com
Guitar Tab Creator is intended to store guitar tab created through the tool. It currently does not support in-line text editing. Any text you place in here will be lost. If you need to comment on your tab, please use the "Tab Notes" section located below.