Straight away Guitar tab

(/) Slide Up  (\) Slide Down  (h) Hammer On  (p) Pull Off  (b) Bend (r) Release (v) Vibrato

Intro
E|--------------------------------------------------------------------------------------------------
B|--------------------------------------------------------------------------------------------------
G|--------------------------------------------------------------------------------------------------
D|--5--7-7-7-7-7-7-7-7--5--7-7-7-7-7-7-7-7----------------------------------------------------------
A|--3--5-5-5-5-5-5-5-5--3--5-5-5-5-5-5-5-5------------------------------------------------------------
E|--------------------------------------------------------------------------------------------------


Verse
E|--------------------------------------------------------------------------------------------------
B|--------------------------------------------------------------------------------------------------
G|--------------------------------------------------------------------------------------------------
D|--5--7-7-7-7-7-7-7-7--5-7-7-7-7-7-7-7-7--11-11-11-11-11-11-11-11----------------------------------
A|--3--5-5-5-5-5-5-5-5--3-5-5-5-5-5-5-5-5--8--8--8--8--8--8--8--8-----------------------------------
E|--------------------------------------------------------------------------------------------------


Chorus
E|--------------------------------------------------------------------------------------------------
B|--------------------------------------------------------------------------------------------------
G|--------------------------------------------------------------------------------------------------
D|--5--7-7-7-7-7-7-7-7--5-7-7-7-7-7-7-7-7--11-11-11-11-11-11-11-11-8-8-8-8-8-8-8-8------------------
A|--3--5-5-5-5-5-5-5-5--3-5-5-5-5-5-5-5-5--8--8--8--8--8--8--8--8--6-6-6-6-6-6-6-6------------------
E|--------------------------------------------------------------------------------------------------


Improvised Solo
E|--------------------------------------------------------------------------------------------------
B|--------------------------------------------------------------------------------------------------
G|--------------------------------------------------------------------------------------------------
D|--------------------------------------------------------------------------------------------------
A|--------------------------------------------------------------------------------------------------
E|--------------------------------------------------------------------------------------------------


Ending/Outro
E|--------------------------------------------------------------------------------------------------
B|--------------------------------------------------------------------------------------------------
G|--------------------------------------------------------------------------------------------------
D|--5--5--5--5--7--7--7--7--------------------------------------------------------------------------
A|--3--3--3--3--5--5--5--5--------------------------------------------------------------------------
E|--------------------------------------------------------------------------------------------------
http://www.guitartabcreator.com
Guitar Tab Creator is intended to store guitar tab created through the tool. It currently does not support in-line text editing. Any text you place in here will be lost. If you need to comment on your tab, please use the "Tab Notes" section located below.