Straight away bass tab

(/) Slide Up  (\) Slide Down  (h) Hammer On  (p) Pull Off  (b) Bend (r) Release (v) Vibrato

Intro
E|--------------------------------------------------------------------------------------------------
B|--------------------------------------------------------------------------------------------------
G|--------------------------------------------------------------------------------------------------
D|--------------------------------------------------------------------------------------------------
A|--3--5-5-5-5-5-5-5-5--3--5-5-5-5-5-5-5-5----------------------------------------------------------
E|---------------------------------------------------------------------------------------------------


Verse
E|--------------------------------------------------------------------------------------------------
B|--------------------------------------------------------------------------------------------------
G|--------------------------------------------------------------------------------------------------
D|--------------------------------------------------------------------------------------------------
A|--3--5-5-5-5-5-5-5-5--3-5-5-5-5-5-5-5-5-5-9-9-9-9-9-9-9-9-----------------------------------------
E|--------------------------------------------------------------------------------------------------


Chorus
E|--------------------------------------------------------------------------------------------------
B|--------------------------------------------------------------------------------------------------
G|--------------------------------------------------------------------------------------------------
D|--------------------------------------------------------------------------------------------------
A|--3--5-5-5-5-5-5-5-5--3-5-5-5-5-5-5-5-5-5-9-9-9-9-9-9-9-9-0-0-0-0-0-0-0-0-------------------------
E|--------------------------------------------------------------------------------------------------


Improvised Guitar solo
E|--------------------------------------------------------------------------------------------------
B|--------------------------------------------------------------------------------------------------
G|--------------------------------------------------------------------------------------------------
D|--------------------------------------------------------------------------------------------------
A|--------------------------------------------------------------------------------------------------
E|--------------------------------------------------------------------------------------------------


Ending/Outro
E|--------------------------------------------------------------------------------------------------
B|--------------------------------------------------------------------------------------------------
G|--------------------------------------------------------------------------------------------------
D|--------------------------------------------------------------------------------------------------
A|--3--3--3--3--5--5--5--5--------------------------------------------------------------------------
E|--------------------------------------------------------------------------------------------------



E|--
B|--
G|--
D|--
A|--
E|--
http://www.guitartabcreator.com
Guitar Tab Creator is intended to store guitar tab created through the tool. It currently does not support in-line text editing. Any text you place in here will be lost. If you need to comment on your tab, please use the "Tab Notes" section located below.