Build up - Guitar tab

(/) Slide Up  (\) Slide Down  (h) Hammer On  (p) Pull Off  (b) Bend (r) Release (v) Vibrato

Chorus
E|----------------------------------------------------------------------------
B|----------------------------------------------------------------------------
G|----------------------------------------------------------------------------
D|--5-5-5-5-5-5-5-5--3-3-3-3-3-3-3-3--8-8-8-8-8-8-8-8--10-10-10-10-10-10-10-10
A|--3-3-3-3-3-3-3-3--1-1-1-1-1-1-1-1--6-6-6-6-6-6-6-6--8--8--8--8--8--8--8--8
E|----------------------------------------------------------------------------


Improvised Solo - With bass and Drums
E|----------------------------------------------------------------------------
B|----------------------------------------------------------------------------
G|----------------------------------------------------------------------------
D|----------------------------------------------------------------------------
A|----------------------------------------------------------------------------
E|----------------------------------------------------------------------------


Outro/Ending
E|----------------------------------------------------------------------------
B|----------------------------------------------------------------------------
G|----------------------------------------------------------------------------
D|--5-5-5-5-5-5-5-5--3-3-3-3-3-3-3-3--8-8-8-8-8-8-8-8-------------------------
A|--3-3-3-3-3-3-3-3--1-1-1-1-1-1-1-1--6-6-6-6-6-6-6-6--3-3-3-3-3-3-3-3--------
E|-----------------------------------------------------1-1-1-1-1-1-1-1--------
http://www.guitartabcreator.com
Guitar Tab Creator is intended to store guitar tab created through the tool. It currently does not support in-line text editing. Any text you place in here will be lost. If you need to comment on your tab, please use the "Tab Notes" section located below.