Build up - Bass tab

(/) Slide Up  (\) Slide Down  (h) Hammer On  (p) Pull Off  (b) Bend (r) Release (v) Vibrato

Intro
E|----------------------------------------------------------------------------------------------
B|----------------------------------------------------------------------------------------------
G|----------------------------------------------------------------------------------------------
D|----------------------------------------------------------------------------------------------
A|--3-3-3-3-3-3-3-3-3-3-3-3-3-3-3-3--6-6-6-6-6-6-6-6--8-8-8-8-8-8-8-8---------------------------
E|----------------------------------------------------------------------------------------------


Verse
E|----------------------------------------------------------------------------------------------
B|----------------------------------------------------------------------------------------------
G|----------------------------------------------------------------------------------------------
D|----------------------------------------------------------------------------------------------
A|--3-3-3-3-3-3-3-3-3-3-3-3-3-3-3-3--6-6-6-6-6-6-6-6--8-8-8-8-8-8-8-8---------------------------
E|----------------------------------------------------------------------------------------------


Chorus
E|----------------------------------------------------------------------------------------------
B|----------------------------------------------------------------------------------------------
G|----------------------------------------------------------------------------------------------
D|----------------------------------------------------------------------------------------------
A|--3-3-3-3-3-3-3-3-3--1-1-1-1-1-1-1-1--6-6-6-6-6-6-6-6--8-8-8-8-8-8-8-8
E|----------------------------------------------------------------------------------------------


Improvised Solo - With bass and Drums - the bass riff repeats over the solo
E|-----------------------------------------------------------------------------------------------
B|-----------------------------------------------------------------------------------------------
G|-----------------------------------------------------------------------------------------------
D|-----------------------------------------------------------------------------------------------
A|--3-3-3-3-3-3-3-3-3-3-3-3-3-3-3-3--6-6-6-6-6-6-6-6--8-8-8-8-8-8-8-8
E|-----------------------------------------------------------------------------------------------


Outro/Ending
E|-----------------------------------------------------------------------------------------------
B|-----------------------------------------------------------------------------------------------
G|-----------------------------------------------------------------------------------------------
D|-----------------------------------------------------------------------------------------------
A|--3-3-3-3-3-3-3-3--1-1-1-1-1-1-1-1--6-6-6-6-6-6-6-6
E|---------------------------------------------------1-1-1-1-1-1-1-1-----------------------------



E|--
B|--
G|--
D|--
A|--
E|--



E|--
B|--
G|--
D|--
A|--
E|--



E|--
B|--
G|--
D|--
A|--
E|--
http://www.guitartabcreator.com
Guitar Tab Creator is intended to store guitar tab created through the tool. It currently does not support in-line text editing. Any text you place in here will be lost. If you need to comment on your tab, please use the "Tab Notes" section located below.