Wanted dead or alive

(/) Slide Up  (\) Slide Down  (h) Hammer On  (p) Pull Off  (b) Bend (r) Release (v) Vibrato
E|--5--------0--------------------------5--------0------0---------------13---------------12------
B|-----6-----------------------------------6------------3----------------------------------------
G|--------7-----------------------------------7---------2-----------14------14-------12------12--
D|------------------------------7--7--------------------0--------0----------------0--------------
A|------------------------------7--7--------------------0----------------------------------------
E|-----------------------------------------------------------------------------------------------



E|---------10--------------8-------------5-------------3-------3--1-------------13-----------
B|-------------------------------------------------------------------------------------------
G|-----10------10-------9-----9-------5-----5-------4-----4----4--2---------14------14-------
D|--0----------------0-------------0-------------0-----------------------0-------------------
A|-------------------------------------------------------------------------------------------
E|-------------------------------------------------------------------------------------------



E|---------12---------------10--------------8-------------5-------------3---------3--1------------
B|------------------------------------------------------------------------------------------------
G|-----12------12-------10------10-------9-----9-------5-----5-------4-----4------4--2------------
D|--0----------------0----------------0-------------0-------------0-------------------------------
A|----------------------------------------------------------------------------------------0--0--3b
E|------------------------------------------------------------------------------------------------



E|-------------0---------------------------------0-----------------------------0-----------------
B|----------------3--3------------------------------3--3--------------------------3--3-----------
G|----------------------2---------------------------------2-----------------------------2-----2--
D|--3b--0----------------------------0--3b--0--------------------------0--3b0--------------3--0--
A|---------------------------0--0--3b--------------------------0--0--3b--------------------3-----
E|-----------------------------------------------------------------------------------------------



E|--2--2--3p2--0--2----3--3--3-----------------3--3--3---------------------2----2--------0-----
B|--3--3--3-3--3--3----3--3--3-----------------3--3--3---------------3--1--3-------3-----3-----
G|--2--2--2-2--2--2----0--0--0------------0----0--0--0------------0--0--2--2----------2--------
D|----------------2----2--2--0---------0-------2--2--0---------0-----0--3--0-------------------
A|---------------------3--3--2----0h2----------3--3--2----0h2--------2--3----------------------
E|---------------------3---------------------------------------------0-------------------------



E|-----------
B|--3-----3--
G|-----2-----
D|-----------
A|-----------
E|-----------
http://www.guitartabcreator.com
Guitar Tab Creator is intended to store guitar tab created through the tool. It currently does not support in-line text editing. Any text you place in here will be lost. If you need to comment on your tab, please use the "Tab Notes" section located below.