Under the bridge

(/) Slide Up  (\) Slide Down  (h) Hammer On  (p) Pull Off  (b) Bend (r) Release (v) Vibrato


E|--------------------------------------------------------------------------------------------
B|--3-----------3-----------------2-----------------------------3-------------3h5p3-----------
G|--------2--------2--------------------------3-------------------------2------------2--------
D|-----4-----4--------------------------4--------4--4--2-------------4-----4------------4--6--
A|--5-----------------4--2-----------4-----4--------------5--2--4/5---------------------5--7--
E|--------------------------5--4--2-----------------------------------------------------------



E|-------------------------------------------
B|--------------------------------3----------
G|--------------3-------------------------2--
D|--------4--------4--4--2-------------4-----
A|-----4-----4--------------4--2--4/5--------
E|--2----------------------------------------
http://www.guitartabcreator.com
Guitar Tab Creator is intended to store guitar tab created through the tool. It currently does not support in-line text editing. Any text you place in here will be lost. If you need to comment on your tab, please use the "Tab Notes" section located below.