G. Edge - Mořská modř (Blue Sea)

(/) Slide Up  (\) Slide Down  (h) Hammer On  (p) Pull Off  (b) Bend (r) Release (v) Vibrato
E|--7--------5--------3--------2--------0--------0--------0-----------0--2--3--------2-----------
B|-----0--------0--------0--------0--------3--------3--------3-----3-----------0--------0--------
G|--------0--------0--------0--------0--------0--------0--------0-----------------0--------0-----
D|--------------------------------------------------------0-----------------2--------------------
A|--------------------------------------3--------------------------------------------------------
E|--0--------------------------------------------------------------------------------------------



E|--0--------3--------------------------------------------7--------5--------7--------10--------
B|-----0--------0-----1--------1--------3--------3-----------0--------0--------0---------0-----
G|--------0--------0-----0--------0--------0--------0-----------0--------0--------0---------0--
D|--------------------------2--------2--------4--------4---------------------------------------
A|--------------------0------------------------------------------------------------------------
E|--------------------------------------------------------0------------------------------------



E|--0--------0--------0-----------0--2--3--------2--------0--------3--------------------------
B|-----3--------3--------3-----3-----------0--------0--------0--------0-----1--------1--------
G|--------0--------0--------0-----------------0--------0--------0--------0-----0--------0-----
D|--------------------0-----------------2-----------------------------------------2--------2--
A|--3-----------------------------------------------------------------------0-----------------
E|--------------------------------------------------------------------------------------------



E|--------------------------------------------
B|--3--------3--------0--------0--------0-----
G|-----0--------0--------2--------2-----1-----
D|--------4--------4--------2--------2--------
A|--------------------------------------------
E|--------------------0--------------------0--



E|-----------0-----------------------------------0-----------------------------------------------
B|--2-----------2-----4--------4--------2-----------2-----0--------0--------2--------4-----------
G|-----2-----------2-----4--------4--------2-----------2-----0--------0--------2--------4--------
D|--------2-----------------4--------4--------2-----------------0--------0--------2--------4-----
A|--0-----------------------------------------------------------------------0--------------------
E|-----------------------------------------------------------------------------------------------



E|--0--------2--------3--------3--------3--------------------------0-----------------------------
B|-----1--------1--------1--------1--------1-----0--------2-----------2-----4--------4-----------
G|--------0--------2--------2--------2--------2-----0--------2-----------2-----4--------4--------
D|--------------------0--------------------------------0--------2-----------------4--------4-----
A|--------------------------------------------------------0--------------------------------------
E|--------------------------------------3--------------------------------------------------------



E|-----------0--------------------------------------------0--------2--------3--------3--------
B|--2-----------2-----0--------0--------2--------4-----------1--------1--------1--------1-----
G|-----2-----------2-----0--------0--------2--------4-----------0--------2--------2--------2--
D|--------2-----------------0--------0--------2--------4--------------------0-----------------
A|--------------------------------------0-----------------------------------------------------
E|--------------------------------------------------------------------------------------------



E|--2--3--5--------7--------5--------
B|--------------------0--------0-----
G|-----------------------0--------0--
D|-----------------------------------
A|-----------------------------------
E|-----------------0-----------------
http://www.guitartabcreator.com
Guitar Tab Creator is intended to store guitar tab created through the tool. It currently does not support in-line text editing. Any text you place in here will be lost. If you need to comment on your tab, please use the "Tab Notes" section located below.