New Project

(/) Slide Up  (\) Slide Down  (h) Hammer On  (p) Pull Off  (b) Bend (r) Release (v) Vibrato


E|-------------------------------|----------------------|-----
B|-------------------------------|----------------------|-----
G|-------------------------------|----------------------|-----
D|------11------11--11\9---------|------11------11--11--|-----
A|--12------12------------11h12--|--12------12------12--|-----
E|-------------------------------|------------------0---|-----



E|---------------------------------------------------------------------------------------
B|---------------------------------------------------------------------------------------
G|-----------6p4------------------6p4------------------6p4-------------------------------
D|----------------6h7------------------6h7------------------6h7-------------7p6--7\0-----
A|--7--7--7--------------4--4--4--------------0--0--0--------------0--0--0---------------
E|--7--7--7--------------4--4--4--------------0--0--0--------------0--0--0---------------



E|-7--7------7--7------4-4-----4-4-----0-0-----0-0-----2-2-----2-2-----
B|-10---10---10---10---7---7---7---7---7-------7-------5---5---5---5---
G|-9-------9-9-------9-6-----6-6-----6-6---6---6---6---4-----4-4-----4-
D|-7---------7---------4-------4-------0-----0-0-----0-2-------2-------
A|-7---------7---------4-------4-------0-------0-------2-------2-------
E|-7---------7---------4-------4-------0-------0-------2-------2-------
http://www.guitartabcreator.com
Guitar Tab Creator is intended to store guitar tab created through the tool. It currently does not support in-line text editing. Any text you place in here will be lost. If you need to comment on your tab, please use the "Tab Notes" section located below.