heart shape

(/) Slide Up  (\) Slide Down  (h) Hammer On  (p) Pull Off  (b) Bend (r) Release (v) Vibrato
E|-----------
B|--1--------
G|-----------
D|-----2-----
A|--------3--
E|-----------



E|--1--
B|--2--
G|--1--
D|-----
A|-----
E|-----



E|-----
B|--1--
G|--1--
D|--1--
A|-----
E|-----



E|-----------
B|--1--------
G|-----------
D|-----2-----
A|--------3--
E|-----------



E|--------
B|--------
G|--------
D|--1-----
A|-----1--
E|--------



E|--
B|--
G|--
D|--
A|--
E|--
http://www.guitartabcreator.com
Guitar Tab Creator is intended to store guitar tab created through the tool. It currently does not support in-line text editing. Any text you place in here will be lost. If you need to comment on your tab, please use the "Tab Notes" section located below.