Trivium - Watch the world burn

(/) Slide Up  (\) Slide Down  (h) Hammer On  (p) Pull Off  (b) Bend (r) Release (v) Vibrato
E|--------------------------------------------------------------
B|--------------------------------------------------------------
G|--------------------------------------------------------------
D|--------------------------------------------------------------
A|----------------------------------------------10--------------
E|--15--12--0--15--12--0--15--12--0--15--12--0------12--10--12--



E|-------------------------------
B|-------------------------------
G|-------------------------------
D|-------------------------------
A|-8-8-8-8-----8-5-5-5-5-5-5-5-5-
E|-8-8-8-8-----8-5-5-5-5-5-5-5-5-



E|---------------------------------------
B|---------------------------------------
G|---------------------------------------
D|---------------------------------------
A|-8-8-8-8-----8-10-10-10-10-------------
E|-8-8-8-8-----8-10-10-10-10-14-14-14-14-
http://www.guitartabcreator.com
Guitar Tab Creator is intended to store guitar tab created through the tool. It currently does not support in-line text editing. Any text you place in here will be lost. If you need to comment on your tab, please use the "Tab Notes" section located below.