horror punk song

(/) Slide Up  (\) Slide Down  (h) Hammer On  (p) Pull Off  (b) Bend (r) Release (v) Vibrato

Stave 1:

E|-----------------------------
B|-----------------------------
G|-----------------------------
D|-----------------------------
A|-----3-----------------------
E|-3-5---7-5-0--3\9-10-9-6--7--

Stave 2:

E|-----------------------------------------------------------------------
B|-----------------------------------------------------------------------
G|-----------------------------------------------------------------------
D|-7--7-7-7-7-7-7--7--7-7-7-7-7-7--6--6-6-6-6-6-6--10--10-10-10-10-10-10-
A|-5--5-5-5-5-5-5--5--5-5-5-5-5-5--4--4-4-4-4-4-4--8---8--8--8--8--8--8--
E|-----------------------------------------------------------------------

http://www.guitartabcreator.com
Guitar Tab Creator is intended to store guitar tab created through the tool. It currently does not support in-line text editing. Any text you place in here will be lost. If you need to comment on your tab, please use the "Tab Notes" section located below.