Some good Thrash Riffs

(/) Slide Up  (\) Slide Down  (h) Hammer On  (p) Pull Off  (b) Bend (r) Release (v) Vibrato
E|--------------------------------------------------------------------------------------------
B|--------------------------------------------------------------------------------------------
G|--------------------------------------------------------------------------------------------
D|--------8--9--8--6--8--------8--9--8--6--9--6--------8--9--8--6--8--------8--9--8--6--9--6--
A|-----6--------------------6-----------------------6--------------------6--------------------
E|--0--------------------0-----------------------0--------------------0-----------------------



E|---------------------------------------------------------------------------
B|---------------------------------------------------------------------------
G|---------------------------------------------------------------------------
D|--------------------------4\5--4\5--------------------------4\5--4\5-------
A|--------------------------2-3--2-3--------------------------2-3--2-3--6/5--
E|--0--0--0--0--0--0--0--0------------0--0--0--0--0--0--0--0------------4-3--



E|--------------------------------------------------------------------------------
B|--------------------------------------------------------------------------------
G|--------------------------------------------------------------------------------
D|--------------------------4\5--4\5--------------------------4\5--4\5------------
A|--------------------------2-3--2-3--------------------------2-3--2-3--6/5--5/4--
E|--0--0--0--0--0--0--0--0------------0--0--0--0--0--0--0--0------------4-3--3-2--



E|--------------------------------------------------------
B|--------------------------------------------------------
G|--------------------------------------------------------
D|-----------11-----------10-----------11-----------10\7--
A|-----------9------------8------------9------------8--5--
E|--0--0--0------0--0--0------0--0--0------0--0--0--------



E|-----------------------------------------------------------------------------------
B|-----------------------------------------------------------------------------------
G|-----------------------------------------------------------------------------------
D|-----------------------------3--3--3--3--------------------------3--3--3--3--3--3--
A|-----------------------------2--2--2--2--------------------------2--2--2--2--2--2--
E|-----0--0--0--0--0--0--0--0--------------0--0--0--0--0--0--0--0-----------------2--
http://www.guitartabcreator.com
Guitar Tab Creator is intended to store guitar tab created through the tool. It currently does not support in-line text editing. Any text you place in here will be lost. If you need to comment on your tab, please use the "Tab Notes" section located below.