RIFFS FOR - GAME OF A CHILD / TUNING CAPO 3 DROP BBDBGE

(/) Slide Up  (\) Slide Down  (h) Hammer On  (p) Pull Off  (b) Bend (r) Release (v) Vibrato


E|----------------------------------------------
B|--7---------------------7---------------------
G|-----7---------------------7------------------
D|--------9--------11--9--------9--------11--9--
A|-----------7--8------------------7--8---------
E|----------------------------------------------



E|-----
B|-----
G|-----
D|-----
A|-----
E|-----



E|-----2/3\2-----0--2--2/3\2--0--2--2/3\2--0--2----
B|-------------------------------------------------
G|-------------------------------------------------
D|-------------------------------------------------
A|--0---------0------------------------------------
E|-------------------------------------------------
http://www.guitartabcreator.com
Guitar Tab Creator is intended to store guitar tab created through the tool. It currently does not support in-line text editing. Any text you place in here will be lost. If you need to comment on your tab, please use the "Tab Notes" section located below.