Exercise For Dylan

(/) Slide Up  (\) Slide Down  (h) Hammer On  (p) Pull Off  (b) Bend (r) Release (v) Vibrato


E|--------------------------------------------------------------------------------------------
B|--------------------------------------------------------------------------------------------
G|--------------------------------------------------------------------------------------------
D|-----------------------------------------------------------9---------------------9--10--12--
A|---------------8---------------------8--10--12--8--10--12-----12--10--8--10--12-------------
E|--8----10--12-----12--10--8--10--12---------------------------------------------------------



E|--------------------------------------------------------------------------------------------
B|---------------------------------------------------------10---------------------10--12--13--
G|-------------9---------------------9--10--12--9--10--12------12--10--9--10--12--------------
D|--9--10--12-----12--10--9--10--12-----------------------------------------------------------
A|--------------------------------------------------------------------------------------------
E|--------------------------------------------------------------------------------------------



E|--------------10----------------------10--12--13--
B|--10--12--13------13--12--10--12--13--------------
G|--------------------------------------------------
D|--------------------------------------------------
A|--------------------------------------------------
E|--------------------------------------------------



E|--13--12--10------10--12--13--12--10-------------------------------------------------------------
B|--------------13----------------------13--12--10--13--12--10------10--12--13--12--10-------------
G|--------------------------------------------------------------12----------------------12--10--9--
D|-------------------------------------------------------------------------------------------------
A|-------------------------------------------------------------------------------------------------
E|-------------------------------------------------------------------------------------------------



E|------------------------------------------------------------------------------------------
B|------------------------------------------------------------------------------------------
G|--12--10--9------9--10--12--10--9---------------------------------------------------------
D|-------------12--------------------12--10--9--12--10--9------9--10--12--10--9-------------
A|---------------------------------------------------------12--------------------12--10--8--
E|------------------------------------------------------------------------------------------



E|----------------------------------------------8---
B|----------------------------------------------8---
G|----------------------------------------------9---
D|----------------------------------------------10--
A|--12--10--8------8--10--12--10--8-------------10--
E|-------------12--------------------12--10--8--8---
http://www.guitartabcreator.com
Guitar Tab Creator is intended to store guitar tab created through the tool. It currently does not support in-line text editing. Any text you place in here will be lost. If you need to comment on your tab, please use the "Tab Notes" section located below.