Kettling

(/) Slide Up  (\) Slide Down  (h) Hammer On  (p) Pull Off  (b) Bend (r) Release (v) Vibrato
E|----------------------------------------------------------------------
B|----------------------------------------------------------------------
G|----------------------------------------------------------------------
D|-11-11-11-7-7-7-9-9-9-4-4-4-0-0-0-0-5-5-5-2-2-2-7-7-7-4-4-4-8-8-8-8---
A|-11-11-11-7-7-7-9-9-9-4-4-4-0-0-0-0-5-5-5-2-2-2-7-7-7-4-4-4-8-8-8-8---
E|-11-11-11-7-7-7-9-9-9-4-4-4-0-0-0-0-5-5-5-2-2-2-7-7-7-4-4-4-8-8-8-8---



E|---------------------------------------------------------
B|---------------------------------------------------------
G|---------------------------------------------------------
D|-9-9-9-11-11-11-12-12-12-5-5-5-5-5-5-5-0-0-0-0-0-0-0-0---
A|-9-9-9-11-11-11-12-12-12-5-5-5-5-5-5-5-0-0-0-0-0-0-0-0---
E|-9-9-9-11-11-11-12-12-12-5-5-5-5-5-5-5-0-0-0-0-0-0-0-0---



E|-----------------
B|-----------------
G|-----------------
D|-4-4-4-4-7-7-9-9-
A|-4-4-4-4-7-7-9-9-
E|-4-4-4-4-7-7-9-9-



E|-----------------
B|-----------------
G|-----------------
D|-4-4-4-4-4-4-4-4-
A|-4-4-4-4-4-4-4-4-
E|-4-4-4-4-4-4-4-4-



E|--
B|--
G|--
D|--
A|--
E|--
http://www.guitartabcreator.com
Guitar Tab Creator is intended to store guitar tab created through the tool. It currently does not support in-line text editing. Any text you place in here will be lost. If you need to comment on your tab, please use the "Tab Notes" section located below.