Pluma - La escalera (Parte 2)

(/) Slide Up  (\) Slide Down  (h) Hammer On  (p) Pull Off  (b) Bend (r) Release (v) Vibrato

E|-------------------------------------------------------------------------------
B|------12--15--12v-----------------9--------------------------------------------
G|--14---------------14/6--6--7--6-----7--6----6---------------------------------
D|------------------------------------------------9--7--6------------------------
A|-----------------------------------------------------------------------0h2--5--
E|-------------------------------------------------------------------------------



E|------------------------------------------------------------------------------------
B|--14b15--14--14--15--14--12---------------------------------------------------------
G|-----------------------------14--14--14h16p14p12------------------------------------
D|--------------------------------------------------14--14v------7--6-----------------
A|---------------------------------------------------------------------7--5--7--9--9--
E|------------------------------------------------------------------------------------



E|--------------------------------------------------------------------------------------------
B|--------------------------------------------------------------------------------------------
G|--10b11--10b11--9----------------9--9----------------9b10--10--10---------------------------
D|-------------------12--9--9--12--------12--9--9--12----------------12--9--12--12/14--14-----
A|--------------------------------------------------------------------------------------------
E|--------------------------------------------------------------------------------------------



E|--------------------------------------------------------------------------
B|--------------------------------------------------------------------------
G|------12--14b16----14--14--14h16p14--11--11/6--6--6h7p6-------------------
D|--14----------------------------------------------------------------------
A|---------------------------------------------------------0h2--2--5--5--5--
E|--------------------------------------------------------------------------



E|----------------------------------------------------------------------------------------------
B|--14b15--14p12------12--14--14p12------12--14--14b15--14b15--12-------------------------------
G|----------------14-----------------14----------------------------14--13--13h14p13--11--11-----
D|----------------------------------------------------------------------------------------------
A|----------------------------------------------------------------------------------------------
E|----------------------------------------------------------------------------------------------



E|-------------
B|-------------
G|--9--9/7--6--
D|-------------
A|-------------
E|-------------



E|------------------------------------------------------------------------
B|--------------------------------12--12b14--12b14--12b14--12--10---------
G|--11--11--11p9------11--11--11-----------------------------------9--7v--
D|----------------12------------------------------------------------------
A|------------------------------------------------------------------------
E|------------------------------------------------------------------------



E|-----------------------------------12--12--14--14--12--------------------------------------
B|---------15--12--12--------12--15----------------------15--12--15--12v--12--12p10----------
G|--14h15----------------------------------------------------------------------------12--10--
D|-------------------------------------------------------------------------------------------
A|-------------------------------------------------------------------------------------------
E|-------------------------------------------------------------------------------------------

Stave 1:

E|----------------------------------------------------------
B|----------------------------------------------------------
G|--11b13--11b13--11b13--11p9------9--9--9h11--11--9p8--11--
D|-----------------------------11---------------------------
A|----------------------------------------------------------
E|----------------------------------------------------------

http://www.guitartabcreator.com
Guitar Tab Creator is intended to store guitar tab created through the tool. It currently does not support in-line text editing. Any text you place in here will be lost. If you need to comment on your tab, please use the "Tab Notes" section located below.