Pluma - La escalera (Parte 1)

(/) Slide Up  (\) Slide Down  (h) Hammer On  (p) Pull Off  (b) Bend (r) Release (v) Vibrato
E|----------------------------------------------------------------------
B|----------------------------------------------------------------------
G|--7--6h7p7------------------------------------------------------------
D|------------9--7--6/7/6-----------------------------------------------
A|-------------------------7--5--5h7p5----------------------------------
E|--------------------------------------7--5h7--7--5--2--0--2--5--7--5--



E|-----------------------------------------------------------
B|--------10------10-----------------------------------------
G|--9b11------11------11r9--9--9--9p7/6/7--------------------
D|-----------------------------------------9--7--------------
A|-----------------------------------------------9--7--9--5--
E|-----------------------------------------------------------



E|-------------------------------------------------------------------------------------------
B|-------------------------------17--17p15------15--17b18--17b18--17b18--17p15------15-------
G|--16--16--19--16v--16--19--19-------------16----------------------------------16------16v--
D|-------------------------------------------------------------------------------------------
A|-------------------------------------------------------------------------------------------
E|-------------------------------------------------------------------------------------------



E|--19--19p17------17----------------------------------------------------------------------------
B|-------------19------19--19p17------17-----------17--------------------------------------------
G|--------------------------------19------19v--19------19--18--16v--16--14-----------------------
D|--------------------------------------------------------------------------17--16v--14--14--14--
A|-----------------------------------------------------------------------------------------------
E|-----------------------------------------------------------------------------------------------



E|----------------------------------
B|----------------------------------
G|----------------------------------
D|----------------------------------
A|--7--7p5h7p5----------------------
E|--------------7--5--7--10--12p10--



E|-------------------------------------------------------------------------
B|-------------------------------------------------------------------------
G|------------------------------13--9--11--9--13--9--11--9--13--11--9--8v--
D|--11p9------9--11--12--11p9v---------------------------------------------
A|--------12---------------------------------------------------------------
E|-------------------------------------------------------------------------



E|------15--14--12--14--12------------------------------------------
B|--12----------------------15--15p12------12-----------------------
G|-------------------------------------14------14--14--11-----------
D|---------------------------------------------------------14--12v--
A|------------------------------------------------------------------
E|------------------------------------------------------------------



E|------------------------------12------12/14--14--14--
B|--12------12--14--15--14--15------15-----------------
G|------14---------------------------------------------
D|-----------------------------------------------------
A|-----------------------------------------------------
E|-----------------------------------------------------



E|--17p14--14--19--14--17--14--16--16p14--14--16--14--17--16--14--16-----
B|-----------------------------------------------------------------------
G|-----------------------------------------------------------------------
D|-----------------------------------------------------------------------
A|-----------------------------------------------------------------------
E|-----------------------------------------------------------------------



E|------14------17--14v----19--17--14--17--14--17--14--14--17/
B|--14------14------------------------------------------------
G|------------------------------------------------------------
D|------------------------------------------------------------
A|------------------------------------------------------------
E|------------------------------------------------------------



E|---------------------------------------------------
B|---------------------------------------------------
G|---------------------------------------------------
D|---------------------------------------------------
A|---------------------------------------------------
E|--7--10--10----10--12--12--12--10--10--7--5--7--7--
http://www.guitartabcreator.com
Guitar Tab Creator is intended to store guitar tab created through the tool. It currently does not support in-line text editing. Any text you place in here will be lost. If you need to comment on your tab, please use the "Tab Notes" section located below.