ideas

(/) Slide Up  (\) Slide Down  (h) Hammer On  (p) Pull Off  (b) Bend (r) Release (v) Vibrato


E|--0--0--0--2--0--
B|--3--0--3--3--3--
G|--4--4--0--0--0--
D|--2--2--4--4--4--
A|--3--3--2--2--2--
E|--0--0--0--0--3--



E|--2--3--0--
B|--0--0--3--
G|--2--2--0--
D|--1--1--2--
A|--2--2--1--
E|--0--0--0--



E|---------------7--------
B|---3---5---7---7---10---
G|---3---5---7---9---7----
D|---2---3---5---9---9----
A|---3---5---7---7---9----
E|---------------8--------



E|---2---7----
B|---3---8----
G|---4---9----
D|---5---10---
A|------------
E|------------



E|---10---7----7----7---7---5---3---2---2---
B|---0----0----10---5---5---3---3---0---3---
G|---9----9----9----7---7---0---0---0---4---
D|---10---10---10---5---4---------------5---
A|------------------------------------------
E|------------------------------------------
http://www.guitartabcreator.com
Guitar Tab Creator is intended to store guitar tab created through the tool. It currently does not support in-line text editing. Any text you place in here will be lost. If you need to comment on your tab, please use the "Tab Notes" section located below.