weer awesome

(/) Slide Up  (\) Slide Down  (h) Hammer On  (p) Pull Off  (b) Bend (r) Release (v) Vibrato


E|---------------------------
B|--10--10h8-----10--8-------
G|------------9---------7h9--
D|---------------------------
A|---------------------------
E|---------------------------



E|------------------------------------------------
B|-------------------8----------------------------
G|--9--9h7-----7--9-----9--9--9h7-----7-----------
D|----------9----------------------9-----9--7--9--
A|------------------------------------------------
E|------------------------------------------------



E|---------------------------------------------------
B|-------------------8--------------------8--10--10--
G|--9--9h7-----7--9-----9------9--9h7--9-------------
D|----------9----------------------------------------
A|---------------------------------------------------
E|---------------------------------------------------



E|----------------
B|----------------
G|--1--1h3--------
D|----------1--3--
A|----------------
E|----------------
http://www.guitartabcreator.com
Guitar Tab Creator is intended to store guitar tab created through the tool. It currently does not support in-line text editing. Any text you place in here will be lost. If you need to comment on your tab, please use the "Tab Notes" section located below.