verdilacsxss

(/) Slide Up  (\) Slide Down  (h) Hammer On  (p) Pull Off  (b) Bend (r) Release (v) Vibrato


E|----------------------------------
B|-------------6--------------------
G|--7--7h5--7---------7--7h5--7-----
D|-------------------------------7--
A|----------------------------------
E|----------------------------------



E|---------------------------
B|---------------------------
G|---------------------------
D|------------------3--------
A|-----3-----3h4h5-----5--3--
E|--5-----5------------------
http://www.guitartabcreator.com
Guitar Tab Creator is intended to store guitar tab created through the tool. It currently does not support in-line text editing. Any text you place in here will be lost. If you need to comment on your tab, please use the "Tab Notes" section located below.