verdilac 1

(/) Slide Up  (\) Slide Down  (h) Hammer On  (p) Pull Off  (b) Bend (r) Release (v) Vibrato


E|---------------------------------------------
B|---------------------------------------8-----
G|--9b9--7--------7---------7h9h7-----7-----9--
D|----------9--7-----9-------------9-----------
A|---------------------------------------------
E|---------------------------------------------



E|--------------------------------------------
B|--------------------------------------------
G|--------------------------------------7-----
D|--6/8--9--7-----7--9----6/8--9--7--------9--
A|-------------9---------------------9--------
E|--------------------------------------------
http://www.guitartabcreator.com
Guitar Tab Creator is intended to store guitar tab created through the tool. It currently does not support in-line text editing. Any text you place in here will be lost. If you need to comment on your tab, please use the "Tab Notes" section located below.