srood

(/) Slide Up  (\) Slide Down  (h) Hammer On  (p) Pull Off  (b) Bend (r) Release (v) Vibrato

E|----------------------------------------------------------------------------
B|-------------------------------------------8-----10h8-----------8-----------
G|--7b7--5-----------------------7-----7--9-----9--------9--7--9-----9--7--9--
D|----------7--5-----5--7----/9-----9-----------------------------------------
A|----------------7-----------------------------------------------------------
E|----------------------------------------------------------------------------



E|--------------------------------------------------------------------------------
B|------------------------------------------8-----8/10--8-------------------------
G|-------7-----------------9b9--7-----7--9-----9-----------9--7-----7h5-----5--7--
D|--7/9-----9--7-----7--9----------9-----------------------------9-------7--------
A|----------------9---------------------------------------------------------------
E|--------------------------------------------------------------------------------



E|----------
B|----------
G|--9b9--7--
D|----------
A|----------
E|----------
http://www.guitartabcreator.com
Guitar Tab Creator is intended to store guitar tab created through the tool. It currently does not support in-line text editing. Any text you place in here will be lost. If you need to comment on your tab, please use the "Tab Notes" section located below.