the spy's

(/) Slide Up  (\) Slide Down  (h) Hammer On  (p) Pull Off  (b) Bend (r) Release (v) Vibrato


E|------------------------------------------------
B|------------------------------------------------
G|-------------5----------------------------------
D|-------5--7-----7--------5--5\3-----------3--5--
A|--0/7----------------------------5--3--5--------
E|------------------------------------------------



E|----------------------------------
B|----------------------------------
G|----------------------------------
D|------------5---------------5-----
A|-------5h7-----7---------5-----7--
E|--5h7---------------5h7-----------
http://www.guitartabcreator.com
Guitar Tab Creator is intended to store guitar tab created through the tool. It currently does not support in-line text editing. Any text you place in here will be lost. If you need to comment on your tab, please use the "Tab Notes" section located below.