the spy2

(/) Slide Up  (\) Slide Down  (h) Hammer On  (p) Pull Off  (b) Bend (r) Release (v) Vibrato


E|------------------------------------------------------------------
B|-----------------------------------------10--8--------------------
G|-------------5--7--5---------------7--9---------9/12p12--10v--12--
D|-------5--7-----------7--7----7/9---------------------------------
A|--0/7-------------------------------------------------------------
E|------------------------------------------------------------------



E|--------------------------------------------------------------------
B|----------------------------------------------------11p13--11v--13--
G|-------------5--7--5------------------------10--12------------------
D|-------5--7-----------7--7---------7--9/12--------------------------
A|--0/7-------------------------0/9-----------------------------------
E|--------------------------------------------------------------------
http://www.guitartabcreator.com
Guitar Tab Creator is intended to store guitar tab created through the tool. It currently does not support in-line text editing. Any text you place in here will be lost. If you need to comment on your tab, please use the "Tab Notes" section located below.