spaaaccceeeee

(/) Slide Up  (\) Slide Down  (h) Hammer On  (p) Pull Off  (b) Bend (r) Release (v) Vibrato
E|-------------------------------------------------------------
B|----------6-----8h6------------------------------------------
G|-----5h7-----7-------7--5h7----5--5h7------------------------
D|--7------------------------------------7--5------------------
A|---------------------------------------------7----5-----5h7--
E|-----------------------------------------------------7-------



E|---------------------------------------------------------------------
B|-----------------6-----6h8----8h10--8--------------------------------
G|------------5h7-----7------------------9--7----------7-----7h9--7/9--
D|-------5h7--------------------------------------7h9-----9------------
A|--5h7----------------------------------------9-----------------------
E|---------------------------------------------------------------------



E|-------------------------------------------------------------------
B|--8/10--8----------------------------------------------------------
G|-----------9h7-----7\5-----5h7p7--5-------------5-----5h7--7/9--7--
D|----------------9-------7------------7-----5h7-----7---------------
A|----------------------------------------7--------------------------
E|-------------------------------------------------------------------



E|--------------------------------------------------------------
B|---------------6-----6h8----8h6--------------------8----------
G|--7\5-----5h7-----7--------------5h7------------7-----9--7h9--
D|-------7---------------------------------5h7/9----------------
A|--------------------------------------7-----------------------
E|--------------------------------------------------------------



E|-------------------6-----6h8--8--8h6-------------------------------------------
B|--6/8--6-----6--8-----8---------------8--6--8----8--8h6------------------------
G|----------7----------------------------------------------7--5-----5--7p7--5h7--
D|---------------------------------------------------------------7---------------
A|-------------------------------------------------------------------------------
E|-------------------------------------------------------------------------------



E|----------------------------------------------
B|-----------------------------------8----------
G|--7h5-------------------7-----7h9-----9--7h9--
D|-------7--5-----5--7/9-----9------------------
A|-------------7--------------------------------
E|----------------------------------------------
http://www.guitartabcreator.com
Guitar Tab Creator is intended to store guitar tab created through the tool. It currently does not support in-line text editing. Any text you place in here will be lost. If you need to comment on your tab, please use the "Tab Notes" section located below.