the mystery machine

(/) Slide Up  (\) Slide Down  (h) Hammer On  (p) Pull Off  (b) Bend (r) Release (v) Vibrato
E|-------------------------------------------------
B|----------------5/6-----------------------10--8--
G|--7-------7-----------------7-------7--9---------
D|-----9-------9-------7---------9-----------------
A|-------------------------------------------------
E|-------------------------------------------------



E|--------------------------------------------
B|--------------------------------------------
G|------------------------------7h5-----------
D|--------5h7--------5h7----------------5--7--
A|-----------------------------------7--------
E|--5--5-------5--5-------5--5----------------



E|------------------
B|--10--8-----------
G|------------7--9--
D|---------9--------
A|------------------
E|------------------



E|------------------------------------
B|--10--8----------------5/6----------
G|---------7h9-----7--9----------7h9--
D|--------------9-------------7-------
A|------------------------------------
E|------------------------------------



E|----------------------
B|----------------------
G|----------------------
D|----------------------
A|-------3h5--3h5--3h5--
E|--3h5-----------------
http://www.guitartabcreator.com
Guitar Tab Creator is intended to store guitar tab created through the tool. It currently does not support in-line text editing. Any text you place in here will be lost. If you need to comment on your tab, please use the "Tab Notes" section located below.