ix

(/) Slide Up  (\) Slide Down  (h) Hammer On  (p) Pull Off  (b) Bend (r) Release (v) Vibrato
E|--------------------------------------------------
B|---------------------------16p17--17--17----------
G|--------12--14/17--15--17-----------------17--17--
D|--7/13--------------------------------------------
A|--------------------------------------------------
E|--------------------------------------------------



E|--------------------------------------------
B|--------------------------------------------
G|--15p15--13-------------------------11--11--
D|-------------15--13--13h15------13----------
A|----------------------------15--------------
E|--------------------------------------------



E|---------------------------
B|---------------------------
G|-------------9/7-----7--9--
D|------9--12-------9--------
A|--12-----------------------
E|---------------------------



E|-----------------------------------------------------------
B|-------------------------------------------------------15--
G|--15--13p15--13-------------------------12------14/16------
D|-----------------15--13--15---------14------14-------------
A|-----------------------------12/14-------------------------
E|-----------------------------------------------------------



E|-------------------------------------------------------------------
B|-----------------------------------------------10--10--10h8--------
G|--9-----7--9--7--9-----7--9--7--9-----7--9--7----------------9--7--
D|-----9--------------9--------------9-------------------------------
A|-------------------------------------------------------------------
E|-------------------------------------------------------------------
http://www.guitartabcreator.com
Guitar Tab Creator is intended to store guitar tab created through the tool. It currently does not support in-line text editing. Any text you place in here will be lost. If you need to comment on your tab, please use the "Tab Notes" section located below.