hendrix

(/) Slide Up  (\) Slide Down  (h) Hammer On  (p) Pull Off  (b) Bend (r) Release (v) Vibrato


E|----------------------------------------------------------
B|-----------------------------------15---------------------
G|-------------12p14--12------14/16------16--14------16\14--
D|---------14-------------14---------------------17---------
A|--12/14---------------------------------------------------
E|----------------------------------------------------------



E|-----------------------------------------------------------
B|--------------------------------------------14/16--14--16--
G|-------------12p14--12------12--12--12--12-----------------
D|---------14-------------14---------------------------------
A|--12/14----------------------------------------------------
E|-----------------------------------------------------------



E|--------------------------------------------------
B|-------------8------------------------------------
G|--7--9--7h9-----9--7--7h9--7-----7h9--7-----7-----
D|------------------------------9----------9-----9--
A|--------------------------------------------------
E|--------------------------------------------------



E|-----------------------------------------------------------------
B|----------8----------8--10--10----------8----------8--10/12--10--
G|--7h9--7-----7h9--7-------------7h9--7-----7h9--7----------------
D|-----------------------------------------------------------------
A|-----------------------------------------------------------------
E|-----------------------------------------------------------------
http://www.guitartabcreator.com
Guitar Tab Creator is intended to store guitar tab created through the tool. It currently does not support in-line text editing. Any text you place in here will be lost. If you need to comment on your tab, please use the "Tab Notes" section located below.