he hendrix he

(/) Slide Up  (\) Slide Down  (h) Hammer On  (p) Pull Off  (b) Bend (r) Release (v) Vibrato

E|-----------------------------------------
B|--14p14--12------------------------------
G|-------------14--12------12--14--16--14--
D|---------------------14------------------
A|-----------------------------------------
E|-----------------------------------------



E|---------------------------------------
B|----------------16--18--16-------------
G|--14/17--15h17--------------17p17--17--
D|---------------------------------------
A|---------------------------------------
E|---------------------------------------



E|-------------------------------------
B|--18p18--16------------------16------
G|-------------17--15------15------17--
D|---------------------17--------------
A|-------------------------------------
E|-------------------------------------



E|-------------------------------------------
B|-------------------------------------------
G|--12p12--10--------------------------------
D|-------------12--10------10--12--12--------
A|---------------------12--------------------
E|-------------------------------------------



E|---------------------------------------------------------
B|---------------13p15--15--13-----------------------------
G|--9/14--12h14-----------------14--14--12------12h14--14--
D|------------------------------------------14-------------
A|---------------------------------------------------------
E|---------------------------------------------------------



E|------------------------------------------------------------
B|---------15----------------------------------13p15--15--13--
G|--14/16------16--14------14--12------12--14-----------------
D|---------------------17----------14-------------------------
A|------------------------------------------------------------
E|------------------------------------------------------------
http://www.guitartabcreator.com
Guitar Tab Creator is intended to store guitar tab created through the tool. It currently does not support in-line text editing. Any text you place in here will be lost. If you need to comment on your tab, please use the "Tab Notes" section located below.