hard hard hard

(/) Slide Up  (\) Slide Down  (h) Hammer On  (p) Pull Off  (b) Bend (r) Release (v) Vibrato


E|--------------------------
B|--------------------------
G|--7--7--5-----------------
D|-----------7--5-----5--7--
A|-----------------7--------
E|--------------------------



E|-----------------------------
B|-----------------------------
G|---------------7p9--9--7-----
D|-------5--7/9-------------9--
A|--0/7------------------------
E|-----------------------------
http://www.guitartabcreator.com
Guitar Tab Creator is intended to store guitar tab created through the tool. It currently does not support in-line text editing. Any text you place in here will be lost. If you need to comment on your tab, please use the "Tab Notes" section located below.