eerste wah

(/) Slide Up  (\) Slide Down  (h) Hammer On  (p) Pull Off  (b) Bend (r) Release (v) Vibrato


E|------------------------------------
B|------------------------------------
G|-----------------14b16--14----------
D|---------14--16-------------16--16--
A|--12/16-----------------------------
E|------------------------------------



E|--------------------------
B|--------------------------
G|------------7b9--7--------
D|-------7h9----------9--9--
A|--5/9---------------------
E|--------------------------
http://www.guitartabcreator.com
Guitar Tab Creator is intended to store guitar tab created through the tool. It currently does not support in-line text editing. Any text you place in here will be lost. If you need to comment on your tab, please use the "Tab Notes" section located below.