bass

(/) Slide Up  (\) Slide Down  (h) Hammer On  (p) Pull Off  (b) Bend (r) Release (v) Vibrato


E|---------------------
B|---------------------
G|---------------------
D|----------5----------
A|-------5-----7--5h7--
E|--5h7----------------



E|------------------------------------------
B|------------------------------------------
G|------------------------------------------
D|--------------4---------------------6--4--
A|--------4--6-----6------------4--6--------
E|--4--6------------------4--6--------------
http://www.guitartabcreator.com
Guitar Tab Creator is intended to store guitar tab created through the tool. It currently does not support in-line text editing. Any text you place in here will be lost. If you need to comment on your tab, please use the "Tab Notes" section located below.