barbershop bulletin

(/) Slide Up  (\) Slide Down  (h) Hammer On  (p) Pull Off  (b) Bend (r) Release (v) Vibrato


E|---------------------------
B|---------------------------
G|---------------------------
D|----------------5----------
A|-------------5-----7--5h7--
E|--0--0--5h7----------------



E|-----------------------
B|-----------------------
G|-----------------------
D|-----------------------
A|--7--5--------------3--
E|--------7--5--3--5-----



E|----------------------------------------------------------------------
B|--------------------13----------------------------13--15--13----------
G|----------------12------14--12--14--------12--14--------------14--14--
D|--------12--14--------------------------------------------------------
A|----------------------------------------------------------------------
E|--0--0------------------------------0--0------------------------------



E|------------------------------------------------------------------------
B|-----------------------------------16--------18--16---------------------
G|----------------12--14/17--15--17--------------------17p17--15--17--17--
D|--------12--14----------------------------------------------------------
A|------------------------------------------------------------------------
E|--0--0---------------------------------0--0-----------------------------



E|------------------------------------------------------
B|------------------------------------------------------
G|------------------------------------------------------
D|----------------5-------------------------------------
A|-------------5-----7--5--7--------7--5-------------3--
E|--0--0--5h7-----------------7--7--------7--5\3--5-----
http://www.guitartabcreator.com
Guitar Tab Creator is intended to store guitar tab created through the tool. It currently does not support in-line text editing. Any text you place in here will be lost. If you need to comment on your tab, please use the "Tab Notes" section located below.