Alles

(/) Slide Up  (\) Slide Down  (h) Hammer On  (p) Pull Off  (b) Bend (r) Release (v) Vibrato


E|-------------------------------------------------------------------------------------------------|
B|-------------------------------------------------------------------------------------------------|
G|-------------------------------------------------------------------------------------------------|
D|------------------------5h7-5---------------------------------------------------------------------|
A|--------3/7/5—--------------7------------------------------------------------------|
E|--5---------------------------------------------------------------------------------------|

E|-------------------------------------------------------------------------------------------------|
B|-------------------------------------------------------------------------------------------------|
G|-------------------------------------------------------------------------------------------------|
D|----------7-5-------------5h7-5-------------------------------------------------------|
A|--5--5----—--5--5------------------5--5--------------------------------------------|
E|-----------------------------------------------------------------------------------------|

E|--------------------
B|---------5-----------
G|--7--8--------5--7--
D|-----------7--------
A|--------------------
E|--------------------



E|--------------------------------
B|-------------------6--------------
G|-----5-----5--7-----5-----5--7--
D|--7-----7--------------7--------
A|--------------------------------
E|--------------------------------



E|------------------------------------------------------------
B|--8--6--------------------------8--6----------------------6-----
G|--------7--5--------------3--5--------7--5-----5h6--5-----7--
D|--------------7—5h3-5--------------------7----------------
A|------------------------------------------------------------
E|------------------------------------------------------------







E|----------------------------------------------------
B|----------------------------------------------------
G|-------------1----1h3--1--------------3--1-----------
D|--1--2--3-----3----------3--1--2--3--------3--1--3--
A|----------------------------------------------------
E|----------------------------------------------------

E|--------------------------
B|-----------------------4-----
G|--5--5--3--5-----3-----5--
D|----------------5-----------
A|--------------------------
E|--------------------------

E|------------------------
B|------------------------
G|-----------------------1-----
D|------1-----1h2h3-----3--
A|--3-----3---------------
E|------------------------



E|----------------------------------------------------------------------|
B|----------------------------------------------------------------------|
G|-------------1------1h3--1------------------3h1-----------------|
D|--1h2h3-----3-------------3------1h2h3----------3--1-1-1---| groove
A|----------------------------------------------------------------------|
E|-----------------------------------------------------------------------|



E|-------------------------------------------------------|
B|-------------------------------------------------------|
G|--7p5--5h7--5----5h3----------------------------| funk 1
D|---------------7------------5h3/5—7h5----------|
A|-------------------------------------------------------|
E|-------------------------------------------------------|


E|--------------------------------------------------------|
B|--------------------------------------------------------|
G|--7p5--5h7--5-----------------5-------------------| funk 2
D|--------------------7-----5--7------7--5--7---------|
A|-----------------------7--------------------------------|
E|--------------------------------------- -----------------|


E|---------------------------------------------------------|
B|---------------------------------------------------------|
G|---------------------------------------------------------|
D|-----------5h3-----3--5-----------5h3-----5--------| lied 2
A|-----3--5-------5-----------3--5-------5-------------|
E|--5----------------------5------------------------------|

E|--------------------------------------------
B|------------------8------------------8------10--
G|--7h8h7-----7--9-----7h8h7-----7--9---------
D|------------9--------------------9---------------
A|--------------------------------------------
E|--------------------------------------------



E|--------------------------------------------------------------------------------
B|--8--8--6---------------------------------------8--6-----------------------------6-----8--
G|-----------7--5--7--7--5---------------3--5--------7--5--7--7--5--5h6h5-----7-----
D|----------------------------7\5--3--5---------------------------------------------
A|--------------------------------------------------------------------------------
E|--------------------------------------------------------------------------------



E|----------------------------------------
B|-------------6-----8------------6-----6--8--
G|--5h6h5-----7-----5h6h5-----7--------
D|----------------------------------------
A|----------------------------------------
E|----------------------------------------




http://www.guitartabcreator.com
Guitar Tab Creator is intended to store guitar tab created through the tool. It currently does not support in-line text editing. Any text you place in here will be lost. If you need to comment on your tab, please use the "Tab Notes" section located below.