9

(/) Slide Up  (\) Slide Down  (h) Hammer On  (p) Pull Off  (b) Bend (r) Release (v) Vibrato


E|---------------------------------------------
B|---------------------------------------------
G|---------------------------------------------
D|-------------------5-------------------5-----
A|-------------5--7----------------5--7-----7--
E|--0--0--2/7-----------0--0--2/7--------------



E|--12--10------------------------------------------12--10--------------------------------------
B|----------12--12--10--------------------------------------12--12--10--------------------------
G|----------------------12--12--10----------10--12----------------------12--12--10------10--12--
D|----------------------------------12--12------------------------------------------12----------
A|----------------------------------------------------------------------------------------------
E|----------------------------------------------------------------------------------------------



E|------------
B|--2/3-------
G|-------2/4--
D|------------
A|------------
E|------------
http://www.guitartabcreator.com
Guitar Tab Creator is intended to store guitar tab created through the tool. It currently does not support in-line text editing. Any text you place in here will be lost. If you need to comment on your tab, please use the "Tab Notes" section located below.