6

(/) Slide Up  (\) Slide Down  (h) Hammer On  (p) Pull Off  (b) Bend (r) Release (v) Vibrato


E|----------------------------------------------------------------
B|----------------------------------------------8-----------------
G|----------5--7----------7b7--5--7--5--5/7--9-----9--7--------7--
D|--2/5--7--------2/5--7---------------------------------9--7-----
A|----------------------------------------------------------------
E|----------------------------------------------------------------



E|---------------------------------
B|----------8----------------------
G|--5/7--9-----9--7-------------5--
D|-------------------9/7--5--7-----
A|---------------------------------
E|---------------------------------



E|---------------------------------------
B|-------------6-------------------------
G|-------5--7-----7-------7--5-----5--7--
D|--2/7--------------2/7--------7--------
A|---------------------------------------
E|---------------------------------------



E|--------
B|--------
G|--2-----
D|-----2--
A|--------
E|--------
http://www.guitartabcreator.com
Guitar Tab Creator is intended to store guitar tab created through the tool. It currently does not support in-line text editing. Any text you place in here will be lost. If you need to comment on your tab, please use the "Tab Notes" section located below.