2

(/) Slide Up  (\) Slide Down  (h) Hammer On  (p) Pull Off  (b) Bend (r) Release (v) Vibrato


E|-----------------------------------------------
B|-----------------------------------------------
G|---------1-----1h3h1------------3--1-----------
D|--1h2h3-----3---------3--1h2h3-----------1--3--
A|--------------------------------------3--------
E|-----------------------------------------------



E|------------------------------------------------
B|------------------------------------------------
G|------------------1--------------3--1-----------
D|-----1-----1h2h3-----3-----1-----------3--1--3--
A|--3-----3---------------3-----3-----------------
E|------------------------------------------------
http://www.guitartabcreator.com
Guitar Tab Creator is intended to store guitar tab created through the tool. It currently does not support in-line text editing. Any text you place in here will be lost. If you need to comment on your tab, please use the "Tab Notes" section located below.