1

(/) Slide Up  (\) Slide Down  (h) Hammer On  (p) Pull Off  (b) Bend (r) Release (v) Vibrato


E|--------------------------------------------
B|------------------8------------------8--10--
G|--7h8h7-----7--9-----7h8h7-----7--9---------
D|---------9------------------9---------------
A|--------------------------------------------
E|--------------------------------------------



E|--------------------------------------------------------------------------------
B|--8--8--6----------------------------------8--6------------------------6-----8--
G|-----------7--5--7--7--5-------------3--5--------7--5--7--7--5--5h6h5-----7-----
D|--------------------------7\5--3--5---------------------------------------------
A|--------------------------------------------------------------------------------
E|--------------------------------------------------------------------------------



E|----------------------------------------
B|---------6-----8------------6-----6--8--
G|--5h6h5-----7-----5h6h5--7-----7--------
D|----------------------------------------
A|----------------------------------------
E|----------------------------------------
http://www.guitartabcreator.com
Guitar Tab Creator is intended to store guitar tab created through the tool. It currently does not support in-line text editing. Any text you place in here will be lost. If you need to comment on your tab, please use the "Tab Notes" section located below.