Fingerspelsövning 1

(/) Slide Up  (\) Slide Down  (h) Hammer On  (p) Pull Off  (b) Bend (r) Release (v) Vibrato

E|--------------------------------------------------
B|--------------------------------------------------
G|--1--------2--3-----4--------6-----7-----8--9-----
D|--------------------------------------------------
A|--------------------------------------------------
E|-----0--2--------3-----4--5-----7-----8--------9--



E|--------------------------------------------
B|--------------------------------------9--6--
G|--1--2--3--4--6--7--8--9--1--2--3--4--------
D|--------------------------------------------
A|--------------------------------------7--5--
E|--0--2--3--4--5--7--8--9--0--2--3--4--------
http://www.guitartabcreator.com
Guitar Tab Creator is intended to store guitar tab created through the tool. It currently does not support in-line text editing. Any text you place in here will be lost. If you need to comment on your tab, please use the "Tab Notes" section located below.