War - Guitar Tab

(/) Slide Up  (\) Slide Down  (h) Hammer On  (p) Pull Off  (b) Bend (r) Release (v) Vibrato

Intro
E|-----------------2------------------------------------
B|-----3--------------3-------------3-------------5-----
G|--------2----------------------4-------------6-----6--
D|--0--------0--4--------4--4/5--------5--5/7-----------
A|------------------------------------------------------
E|------------------------------------------------------


Verse
E|-----------------2-----------------------2--------
B|-----3--------------3--------3--------------3-----
G|--------2-----------------------2-----------------
D|--0--------0--4--------4--0--------0--4--------4--
A|--------------------------------------------------
E|--------------------------------------------------


Play with your gun, tell me about the fun... (2 times)
E|--2-----------------------------------------
B|--3-----------------------------------------
G|--2-----------------------------------------
D|--0--------------------------------------4--
A|-----------------------------------------4--
E|-----------------------------------------2--


Tell everybody about your shiny new gun...
E|--0--------------1--------------------0--
B|--1--------------3--------------------1--
G|--0--------------2--------------------2--
D|--2--------------0--------------------2--
A|--3-----------------------------------0--
E|-----------------------------------------
http://www.guitartabcreator.com
Guitar Tab Creator is intended to store guitar tab created through the tool. It currently does not support in-line text editing. Any text you place in here will be lost. If you need to comment on your tab, please use the "Tab Notes" section located below.