That Song

(/) Slide Up  (\) Slide Down  (h) Hammer On  (p) Pull Off  (b) Bend (r) Release (v) Vibrato

Intro/Verse
E|--------------------------------------------|
B|--------------------------------------------|
G|--------------------------------------------|
D|--7----7----7--7----8--7----7----7--7----5--|
A|--5----5----5--5----5--5----5----5--5----3--|
E|--------------------------------------------|


Verse 2
Like the stars above, so fucking the same, she has a mouth quite wide...
E|-----------------------------------------------------------
B|-----------------------------------------------------------
G|-----------------------------7-----------------------------
D|------------5----------------7--------------------------8--
A|------------5----------------5--------------------------8--
E|------------3-------------------------------------------6--


Not 'cause of shit she has said...
E|---------------------------------|
B|---------------------------------|
G|----------------7------------10--|
D|----------------7------------10--|
A|----------------5------------8---|
E|---------------------------------|


Chorus
404, you're not found, die for the worthless, gonna take you away...
E|----------------------------------------------------------------------|
B|----------------------------------------------------------------------|
G|--7----------------------------------------------------7--------------|
D|--7----8------------------5----------------------------7--------------|
A|--5----8------------------5----------------------------5--------------|
E|-------6------------------3-------------------------------------------|

Bridge 1
Go to outer space, start a new race...
E|-----------|----------------------------------------|
B|-----------|----------------------------------------|
G|--10----9--|----------------------------------------|
D|--10----9--|--7------------------10------12--7------|
A|--8-----7--|--5------------------8-------10--5------|
E|--8-----7--|----------------------------------------|


You're basically dead, just like this case...
E|------------------------------------------------|-------------
B|------------------------------------------------|-------------
G|----------10--------------12--------------------|-------------
D|----------10--------------12--------------------|--7----5--7--
A|----------8---------------10--------------------|--5----3--5--
E|----------8---------------10--------------------|-------------


Bridge 2
Like the Hawaii island... ... inside out
E|--------------------------------------------
B|--------------------------------------------
G|----------------------------------10--------
D|------5--7------------------------10----12--
A|------3--5------------------------8-----10--
E|--------------------------------------------


She's dead inside, no respawn, no more...
E|-------------------------------------------|
B|-------------------------------------------|
G|---------------------10------------12------|
D|--------7------------10------------12------|
A|--------5------------8-------------10------|
E|---------------------8-------------10------|
http://www.guitartabcreator.com
Guitar Tab Creator is intended to store guitar tab created through the tool. It currently does not support in-line text editing. Any text you place in here will be lost. If you need to comment on your tab, please use the "Tab Notes" section located below.