octave tune 4

(/) Slide Up  (\) Slide Down  (h) Hammer On  (p) Pull Off  (b) Bend (r) Release (v) Vibrato
E|-----------------------------------------------------------------------
B|-----------------------------------------------------------------------
G|-----------------------------------------------------------------------
D|-----------------7-----------------------7-----------------7-----------
A|--------2--x--x--5--x--5--7--5--2--x--x--5--5-----2--x--x--5--5--7--5--
E|--------0--x--x-----x--3--5--3--0--x--x-----3-----0--x--x-----3--5--3--



E|-------------------------------------------------
B|------------------------------------------8--10--
G|-----------------------------------8--10---------
D|-----------------------5--7--8--9----------------
A|-----------------5--7----------------------------
E|--0--3--5--6--7----------------------------------

play the above tab twice and after the second time play tab below once to end the song

E|-------------------------------------------------------
B|--10--8------------------------------------------------
G|---------10--8-----------------------------------------
D|----------------9--8--7--5-----------------------------
A|----------------------------7--5-----------------------
E|----------------------------------7--6--5--3--5--3--0--
http://www.guitartabcreator.com
Guitar Tab Creator is intended to store guitar tab created through the tool. It currently does not support in-line text editing. Any text you place in here will be lost. If you need to comment on your tab, please use the "Tab Notes" section located below.