octave tune 2

(/) Slide Up  (\) Slide Down  (h) Hammer On  (p) Pull Off  (b) Bend (r) Release (v) Vibrato


E|-----x--x--x--x--x--x--x-----x--x-----3--
B|-----x--x--x--x--x--x--x-----x--x-----3--
G|-----x--x--x--x--x--x--x-----x--x-----0--
D|-----x--x--x--x--x--x--x-----x--x--------
A|--2--x--x--x--x--x--x--x--2--x--x--------
E|--0--x--x--x--x--x--x--x--0--x--x--2-----

play 3 times

E|-----x--x--x--x--x--x--x--------------
B|-----x--x--x--x--x--x--x--3-----------
G|-----x--x--x--x--x--x--x--2-----------
D|-----x--x--x--x--x--x--x--0--2--------
A|--2--x--x--x--x--x--x--x-----0-----2--
E|--0--x--x--x--x--x--x--x--------3--0--
http://www.guitartabcreator.com
Guitar Tab Creator is intended to store guitar tab created through the tool. It currently does not support in-line text editing. Any text you place in here will be lost. If you need to comment on your tab, please use the "Tab Notes" section located below.