octave tune

(/) Slide Up  (\) Slide Down  (h) Hammer On  (p) Pull Off  (b) Bend (r) Release (v) Vibrato
E|------------------------------------------------------
B|------------------------------------------------------
G|------------------------------------------------------
D|--9--11--11--4-----9--11--11--4-----4--5--4--5--4--5--
A|----------------2----------------2--------------------
E|--7--9---9---2--0--7--9---9---2--0--2--3--2--3--2--3--



E|---------------------------------------------
B|---------------------------------------------
G|---------------------------------------------
D|--9--11--11--4-----9--11--11--4--------------
A|----------------2----------------2-----0-----
E|--7--9---9---2--0--7--9---9---2--0--5-----3--



E|-----
B|-----
G|-----
D|-----
A|--7--
E|--5--
http://www.guitartabcreator.com
Guitar Tab Creator is intended to store guitar tab created through the tool. It currently does not support in-line text editing. Any text you place in here will be lost. If you need to comment on your tab, please use the "Tab Notes" section located below.