a min lick

(/) Slide Up  (\) Slide Down  (h) Hammer On  (p) Pull Off  (b) Bend (r) Release (v) Vibrato


E|--------------17--19--20--19--17--15--19--17--15----------------------15--17--19--17--15--
B|--17--18--20--------------------------------------18--17--15--17--18----------------------
G|------------------------------------------------------------------------------------------
D|------------------------------------------------------------------------------------------
A|------------------------------------------------------------------------------------------
E|------------------------------------------------------------------------------------------



E|--13--17--15--13----------------------13--15--17--15--13--12--15--13--12--------------
B|------------------17--15--13--15--17--------------------------------------15--13--12--
G|--------------------------------------------------------------------------------------
D|--------------------------------------------------------------------------------------
A|--------------------------------------------------------------------------------------
E|--------------------------------------------------------------------------------------



E|----------12--13--15--13--12--10--13--12--10-----------------------------------------
B|--13--15--------------------------------------13--12--10--12--13--12--10-------------
G|--------------------------------------------------------------------------12--10--9--
D|-------------------------------------------------------------------------------------
A|-------------------------------------------------------------------------------------
E|-------------------------------------------------------------------------------------



E|----------------------------------------------
B|----------------------------------------------
G|--10--12--10--9-------------------------------
D|-----------------12--10--9--10--12--10--9--7--
A|----------------------------------------------
E|----------------------------------------------
http://www.guitartabcreator.com
Guitar Tab Creator is intended to store guitar tab created through the tool. It currently does not support in-line text editing. Any text you place in here will be lost. If you need to comment on your tab, please use the "Tab Notes" section located below.