may29

(/) Slide Up  (\) Slide Down  (h) Hammer On  (p) Pull Off  (b) Bend (r) Release (v) Vibrato

E|--20--19--17------17--------------------------------------------------------------------------
B|--------------20------20--18--17------17------------------------------------------------------
G|----------------------------------19------19--17--16------16----------------------16--17--19--
D|------------------------------------------------------19------19--17--15--17--19--------------
A|----------------------------------------------------------------------------------------------
E|----------------------------------------------------------------------------------------------



E|------------------------------------------------------------------------------------------
B|--17--18--20--18--17------17--------------------------------------------------------------
G|----------------------19------19--17--16------16----------------------16--17--19--17--16--
D|------------------------------------------19------19--17--15--17--19----------------------
A|------------------------------------------------------------------------------------------
E|------------------------------------------------------------------------------------------



E|--------------
B|--------------
G|--------------
D|--17--15--13--
A|--------------
E|--------------



E|----------------------------------------------17--19--20--
B|----------------------------------17--18--20--------------
G|----------------------16--17--19--------------------------
D|--19--17--15--17--19--------------------------------------
A|----------------------------------------------------------
E|----------------------------------------------------------
http://www.guitartabcreator.com
Guitar Tab Creator is intended to store guitar tab created through the tool. It currently does not support in-line text editing. Any text you place in here will be lost. If you need to comment on your tab, please use the "Tab Notes" section located below.