h

(/) Slide Up  (\) Slide Down  (h) Hammer On  (p) Pull Off  (b) Bend (r) Release (v) Vibrato


E|--------------------------------------------------------------------------
B|--------------------------------------------------------------------------
G|--------------------------------------------------------------------------
D|--------------------------------------------------------------------2--4--
A|-----------x-----------------------------x--------------------2--4--------
E|--2--0--2--x--2--0--2--2--0--2--2--0--2--x--2--0--2--0--2--5--------------



E|-----------------------------------------------------------------------
B|-----------------------------------------------------------------------
G|-----------------------------------------------------------------------
D|-----------------------------------------------------------------------
A|-----------x-----------------------------x--------------2--4-----------
E|--2--0--2--x--2--0--2--2--0--2--2--0--2--x--2--0--2--5--------2--5-----
http://www.guitartabcreator.com
Guitar Tab Creator is intended to store guitar tab created through the tool. It currently does not support in-line text editing. Any text you place in here will be lost. If you need to comment on your tab, please use the "Tab Notes" section located below.